RyCooder | a website for musicians and a fans

Album: Paris Texas

 

 

 

Paris Texas

Tabbed by Jean-Pierre TROLET

http://tabwyp.free.fr/

 

The two guitars are tuned in OPEN D : from low to high : D - A - D - F# - A - D

Legend :

/ : slide up

\ : slide down

<n> : slide rapidly to and fro around the fret

 

All the notes of the second guitar are played with the slide bar, so are the ones

played with the first except where indicated.

Where the slide bar is used , play just above the numbered fret.

 

FIRST GUITAR

D  +-------------------------------------+-------------------------------------+

A  +-------------------------------------+-------------------------------------+

F# +---10/11\10-10-------10/11-----------+---10/11\10/11--10----10/11\10/11----+

D  +----------------------------12-------+----------------------------------12-+

A  +-------------------------------------+-------------------------------------+

D  +-------------------------------------+-------------------------------------+

 

SECOND GUITAR

D  +----------------7----------------(0)-+---------------------7-----------------(0)

A  +---------------7-----------------0---+--------------------7------------------0-+

F# +--------------7-----------------0----+-------------------7------------------0--+

D  +-------------7-----------------0-----+------------------7------------------0---+

A  +------------0-----------------0------+-----------------0------------------0----+

D  +-----------------------------0-------+-----------------------------------0-----+

 

FIRST GUITAR

D  +-------------------------------------+-------------------------------------+

A  +-------------------------------------+-------------------------------------+

F# +---10/11--10--------10/11------------+-------------------------------------+

D  +----------------------------12-------+-9/10---7----------2/3\2---0---------+

A  +-------------------------------------+-------------------------------------+

D  +-------------------------------------+-------------------------------------+

 

SECOND GUITAR

D  +--------------7------------------5---+-------------7------------------0----+

A  +-------------7------------------5----+------------7------------------0-----+

F# +------------7------------------5-----+-----------7------------------0------+

D  +-----------7------------------5------+----------7------------------0-------+

A  +----------0------------------5-------+---------7------------------0--------+

D  +----------------------------5--------+--------7------------------0---------+

 

FIRST GUITAR

   <--------------  X 2 -----------------><------------------------------------

D  +---------------------10/12----12-----+---10/12---10------------------------+

A  +--10/12---12-------------------------+-----------------------10/12---10----+

F# +-------------------------------------+-------------------------------------+

D  +-------------------------------------+-------------------------------------+

A  +-------------------------------------+-------------------------------------+

D  +-------------------------------------+-------------------------------------+

 

SECOND GUITAR

D  +-----------------------------------12+----------------10------------------5+

A  +----------------10----------------12-+---------------10------------------5-+

F# +--------------10-----------------12--+--------------10------------------5--+

D  +------------10------------------12---+-------------10------------------5---+

A  +-----------0-------------------12----+------------10------------------5----+

D  +------------------------------12-----+-----------10------------------5-----+

 

FIRST GUITAR

   ------------X 2-----------------------><-----no slide------------------------

D  +-------------------------------------+-------------------------------------+

A  +-------------------------------------+-------------------------------------+

F# +--10/11--10--------------------------+---8---6------5---5------3---3-------+

D  +------------------10/11\10-----------+-----0--------------0----------0-----+

A  +-------------------------------------+---------7---------------------------+

D  +-------------------------------------+-----------0----0-----0----0-----0---+

 

SECOND GUITAR

D  +-------------7----------------0------+-------------------------------------+

A  +------------7----------------0-------+-------------------------------------+

F# +-----------7----------------0--------+-------------------------------------+

D  +----------7----------------0---------+-------------------------------------+

A  +---------7----------------0----------+-------------------------------------+

D  +--------7----------------0-----------+-------------------------------------+

 

FIRST GUITAR

   -------------------------------------><---------------------------- X 2 -----

D  +-------------------------------------+-------------------------------------+

A  +-------------------------------------+-------------------------------------+

F# +--1----1------3----3-----------------+-------------------------------------+

D  +---------0-----------0---------------+-------------------------------------+

A  +-------------------------------------+-------------------------------------+

D  +----0------0-----0-----0-------------+---0--3--3/5-<5>--5\3-5--5/7--<7>----+

 

SECOND GUITAR

D  +-------------------------------------+-------------<5>--------------<7>----+

A  +-------------------------------------+-------------<5>--------------<7>----+

F# +-------------------------------------+-------------<5>--------------<7>----+

D  +-------------------------------------+-------------<5>--------------<7>----+

A  +-------------------------------------+-------------<5>--------------<7>----+

D  +-------------------------------------+-------------<5>--------------<7>----+

 

FIRST GUITAR

   -------------------------------------->

D  +-------------------------------------+-------------------------------------+

A  +-------------------------------------+-------------------------------------+

F# +-------------------------------------+-------------------------------------+

D  +-------------------------------------+-------------------------------------+

A  +-------------------------------------+-------------------------------------+

D  +--2/3\2--0---------------------------+-------------------------------------+

 

SECOND GUITAR

D  +-------------0-----------------------+-------------------------------------+

A  +------------0------------------------+-------------------------------------+

F# +-----------0-------------------------+-------------------------------------+

D  +----------0--------------------------+-------------------------------------+

A  +---------0---------------------------+-------------------------------------+

D  +--------0----------------------------+-------------------------------------+

 

 

Brothers

 

 

Nothing Out There

 

 

CanciĆ³n Mixteca

 

 

No Safety Zone

 

 

Houston in Two Seconds

Playing Notes:

 

/ - slide up

\ - slide down

p - pull off

s - slide between notes

~ - vibrato

* - played without slide

 

played in Open C# (C# G# C# F G# C# from low to high)

 

C#|-/7--7--------------------5-s-4-s-5-------------------/4-s-3-s-4-0---------|

G#|-----------------7-(7~)-----------------------5-(5~)-----------------------|

F-|--------------7----(7~)--------------------5----(5~)-----------------------|

C#|--------0--7-------(7~)-----------------5-------(5~)------------------0----|

G#|-------------------------------------5----------(5~)----------------2--(2~)|

C#|---------------------------------------------------------------------------|

 

|--------------0----0--/4-/5---------------/4p0-/4---/7-/7------------------|

|----------------------------------5-(5~)-------------------------7-(7~)----|

|--------------------------------5---(5~)-----------------------7---(7~)----|

|---0-----0--------------------5-----(5~)------------------0--7-----(7~)----|

|-2---2-2---2----------------5-------(5~)-----------------------------------|

|---------------------------------------------------------------------------|

 

|-/12-12---12-s-10------/7-/7--5-4-s-5------------------------/4--4-s-2-p-0-|

|-----------------/12------------------------5-------5-(5~)-----------------|

|------------------------------------------5---5---5---(5~)-----------------|

|----------------------------------------5-------5-----(5~)-----------------|

|--------------------------------------5---------------(5~)-----------------|

|---------------------------------------------------------------------------|

 

(*

|----------0--------/5~-----------------------------------0-----------------|

|--------2----------/5~-----------5-----------------------------------------|

|-------------------/5~---------5----------0--1-----3-----------------------|

|----0----------0-------------5---------0--------0-----0--------------------|

|-/2----------3-------------5-----------------------------------------------|

|------------------------5-------------------------------------5------------|

 

*) (* *)

|---------------------------------------------------------------------------|

|-----------------0--/5~---5-----0---------------(/5~)----------------------|

|----0--1--3-------------------------0--1--3-----(/5~)----------------------|

|-0-----------0-------------------------------0--(/5~)---/7s6s7--5-s-4-p-0--|

|--------------------/5~----------------------------------------------------|

|-----------------------------5---------------------------------------------|

 

|-------0------------------------0--/4--------4-/5--------5--/7s6s7---------|

|------------------------------------------0----------------------------7---|

|----------0---------------0-------------0-------------5--------------7-----|

|----0-------0---0---/5~-----0---------0-------------5--------------7-------|

|-2------------2-----------------------------------5------------------------|

|--------------------/5~----------------------------------------------------|

 

|--------------12------12----------/5-4-s-5---------------\4p0--------------|

|-(7~)-----/12-----/12----\11---------------------5-(5~)--------------5---5-|

|-(7~)-----------------------/12----------------5---(5~)--------------5---5-|

|-(7~)----------------------------------------5-----(5~)--------0-----5---5-|

|-------------------------------------------5-------(5~)-----------/5-------|

|---------------------------------------------------------------------------|

 

 

She's Leaving the Bank

 

 

On the Couch

Playing Notes:

 

/ - slide up

\ - slide down

s - slide between notes

p - pull off

~ - vibrato

* - notes played without slide

 

Played in Open D (D A D F# A D from low to high)

 

D-|-/3-s-2~----------------/3--0---------------------/3-s-2-s-3-p-0--2------|

A-|-------------------------------/5~--------(p-0)--------------------------|

F#|-------------------------------------------------------------------------|

D-|----------0----0---0-----------------------------------------------------|

A-|-----------------0-----------------(5---5)---------------------------0---|

D-|--------------------------------------5----------------------------------|

 

|------/3-s-2-p-0--------------/3-p-0--/2~--------/3------------------------|

|-----------------/5~---------------------------------/5~---------------0---|

|------------------------------------------------------------5---/6-s-5-----|

|-0---0---------------------------------------0-------------5---------------|

|---0-----------------(5---5)---------------0--------------5----------------|

|------------------------5--------------------------------5-----------------|

 

 

(*) (*

|-----------------------------------------------------------------------2---|

|-----0-------------------------------------------------------------------0-|

|---1-----------------------------------------------------------------1-----|

|-----------0--(3)/5--/5-s-3-s-5-/7---\2--s--3--s--2-p-0---0---0------------|

|-0----------------------------------------------------------0------0-------|

|-----------0--(3)/5--/5-s-3-s-5-/7---\2--s--3--s--2-p-0---0----------------|

 

|---0---------------2-----------0-----------------0-----------0-------------|

|------------------0--0-------------------0---------------------------------|

|-6---------------1-----1-----6----------------6---------5-----------3------|

|-------0--------2------------------0----------------------0-----------0----|

|-----7---0-----0-----------------7----------7---------5-----------3--------|

|-----------------------------------------------------0-----------0---------|

 

 

*)

|---------------------------------------------------------------------------|

|---------------------------------------------------------------------------|

|---1-----------------------------------------------------------------------|

|---------0--3--/5~--/5-s-3-s-5-/7~---\2--s--3--p-0-----0-----0--3-s-5------|

|-2-------------------------------------------------------------------------|

|---------0--3--/5~--/5-s-3-s-5-/7~---\2--s--3--p-0---0-------0--3-s-5-5----|

 

|-----------------------------------------------0--|

|----------------------------------------------0---|

|---------------------------------------------1----|

|-/5--\3--/7~---\2--s--3---0------0----------0-----|

|----------------------------0--------------0------|

|-/5--\3--/7~---\2--s--3-------0----0--------------|

 

 

I Knew These People

 

 

Dark Was The Night

 Playing Notes:

 

/ - slide up

\ - slide down

h - hammer on

p - pull off

s - slide between notes

# - note played slightly sharp

 

played in Open D (D A D F# A D from low to high)

 

D-|-------------------/2---0------------------------------------------------|

A-|--0--/7--\5----0-3--------3s2p0------------------------------------------|

F#|-------------------------------------------------------------------------|

D-|---------------------------------0---0-/4-/5-/7-/4---0-/4-/5-/7-7s5-\4--0|

A-|--0--/7--\5--------------------------------------------------------------|

D-|-------------------------------------0-/4-/5-/7-/4---0-/4-/5-/7-7s5-\4---|

 

|-/7---0--/4s3s4----/7---/12/12----/5--/7s6s7---2-0-----0-0-/3s2---/7s6s7---|

|---------------------------------------------------------------------------|

|---------------------------------------------------------------------------|

|---------------------------------------------------0-----------------------|

|------------------------------------------------------------0--------------|

|-------0----------0---------------/5---------------------------------------|

 

|-0-0-/3s2---/3-s-2-0-------------/4---4s2p0--------------------------------|

|---------------------0-/3#-/5-----------------0-/7-/5--0--/3#-/5---\3p0----|

|---------------------------------------------------------------------------|

|---------------------------------------------------------------------------|

|------0---------------------------------------0-/7-/5-----/3#-/5-----------|

|---------------------------------0-----------------------------------------|

 

|------------------------------------/4--4s2p0-------/16--\12---------------|

|------------------------------------------------/14-----------/14--\9------|

|---------------------------------------------------------------------------|

|-0-/3-/5--5s3s5-/7--\3-s-2-s-3-0-------------------------------------------|

|---------------------------------------------------------------------------|

|-0-/3-/5--5s3s5-/7--------------0------------------------------------------|

 

|--/7--/4p0-/4-4s2p0--4s3s4s7s9--0-h-2---0-4s2s4--5s4----/4--4s2p0----------|

|---------------------------------0------------------/5-------------0-/7-\5-|

|---------------------------------------------------------------------------|

|---------------------------------------------------------------------------|

|----------------------------------0--------------------------------0-/7-\5-|

|-0----------------------------------------0--------------0-----------------|

 

|--------------------------------------------------/7-p-0--/4s3s4--/7-/12/12|

|-0-/3--/5--3p0-------------------------------------------------------------|

|---------------------------------------------------------------------------|

|-------------------0-0--/5--5s3s5-/7--/3-s-2-0-----------------------------|

|-------/5-----0------------------------------------------------------------|

|------------------------/5--5s3s5-/7----------0------------0-------0-------|

 

|-/5---/7/7-s-2p0---0-0-/3s2--/7s6s7s9-p-0---0-0-/3s2--3-s-2-0--------------|

|--------------------------------------------------------------0-/3s5s4-/5--|

|---------------------------------------------------------------------------|

|-/5------------------------------------------------------------------------|

|------------------------0------------------------0-------------------------|

|-/5------------------------------------------------------------------------|

 

|-/4--4s2p0-----------------------------------/12~--|

|------------0-0-/7-/5---0-0-/3-/5-s-3p0------/12~--|

|---------------------------------------------/12~--|

|---------------------------------------------/12~--|

|----------------/7-/5-------/3-/5-s-3p0------------|

|--0------------------------------------------------|